0
SECTION
2
ENTITIES
0
CIRCLE
8
0
10
0
20
0
30
0.0
40
0.1245
0
LINE
8
0
10
0.26869596
20
-0.028369899
30
0.0
11
0.44945483
21
-0.047455078
31
0.0
0
ARC
8
0
10
0.45195313
20
0
30
0.0
40
0.047455078
50
266.98642
51
93.013583
0
LINE
8
0
10
0.26869596
20
0.028369899
30
0.0
11
0.44945483
21
0.047455078
31
0.0
0
ARC
8
0
10
0
20
0
30
0.0
40
0.27018951
50
6.0271666
51
29.972833
0
LINE
8
0
10
0.23405501
20
0.13498379
30
0.0
11
0.39150999
21
0.22579095
31
0.0
0
ARC
8
0
10
0.36563776
20
0.26565138
30
0.0
40
0.047455078
50
-57.013583
51
129.01358
0
LINE
8
0
10
0.20070419
20
0.18088726
30
0.0
11
0.3357232
21
0.30257488
31
0.0
0
ARC
8
0
10
0
20
0
30
0.0
40
0.27018951
50
42.027167
51
65.972833
0
LINE
8
0
10
0.110013
20
0.24677827
30
0.0
11
0.18402164
21
0.41279252
31
0.0
0
ARC
8
0
10
0.1396612
20
0.42983296
30
0.0
40
0.047455078
50
-21.013583
51
165.01358
0
LINE
8
0
10
0.056050242
20
0.26431183
30
0.0
11
0.093756719
21
0.44212137
31
0.0
0
ARC
8
0
10
0
20
0
30
0.0
40
0.27018951
50
78.027167
51
101.97283
0
LINE
8
0
10
-0.056050242
20
0.26431183
30
0.0
11
-0.093756719
21
0.44212137
31
0.0
0
ARC
8
0
10
-0.1396612
20
0.42983296
30
0.0
40
0.047455078
50
14.986417
51
201.01358
0
LINE
8
0
10
-0.110013
20
0.24677827
30
0.0
11
-0.18402164
21
0.41279252
31
0.0
0
ARC
8
0
10
0
20
0
30
0.0
40
0.27018951
50
114.02717
51
137.97283
0
LINE
8
0
10
-0.20070419
20
0.18088726
30
0.0
11
-0.3357232
21
0.30257488
31
0.0
0
ARC
8
0
10
-0.36563776
20
0.26565138
30
0.0
40
0.047455078
50
50.986417
51
237.01358
0
LINE
8
0
10
-0.23405501
20
0.13498379
30
0.0
11
-0.39150999
21
0.22579095
31
0.0
0
ARC
8
0
10
0
20
0
30
0.0
40
0.27018951
50
150.02717
51
173.97283
0
LINE
8
0
10
-0.26869596
20
0.028369899
30
0.0
11
-0.44945483
21
0.047455078
31
0.0
0
ARC
8
0
10
-0.45195313
20
0
30
0.0
40
0.047455078
50
86.986417
51
-86.986417
0
LINE
8
0
10
-0.26869596
20
-0.028369899
30
0.0
11
-0.44945483
21
-0.047455078
31
0.0
0
ARC
8
0
10
0
20
0
30
0.0
40
0.27018951
50
186.02717
51
209.97283
0
LINE
8
0
10
-0.23405501
20
-0.1349838
30
0.0
11
-0.39150999
21
-0.22579096
31
0.0
0
ARC
8
0
10
-0.36563776
20
-0.26565138
30
0.0
40
0.047455078
50
122.98642
51
-50.986417
0
LINE
8
0
10
-0.20070419
20
-0.18088726
30
0.0
11
-0.3357232
21
-0.30257488
31
0.0
0
ARC
8
0
10
0
20
0
30
0.0
40
0.27018951
50
222.02717
51
245.97283
0
LINE
8
0
10
-0.110013
20
-0.24677827
30
0.0
11
-0.18402164
21
-0.41279252
31
0.0
0
ARC
8
0
10
-0.1396612
20
-0.42983296
30
0.0
40
0.047455078
50
158.98642
51
-14.986417
0
LINE
8
0
10
-0.056050242
20
-0.26431183
30
0.0
11
-0.093756719
21
-0.44212137
31
0.0
0
ARC
8
0
10
0
20
0
30
0.0
40
0.27018951
50
258.02717
51
281.97283
0
LINE
8
0
10
0.056050242
20
-0.26431183
30
0.0
11
0.093756719
21
-0.44212137
31
0.0
0
ARC
8
0
10
0.1396612
20
-0.42983296
30
0.0
40
0.047455078
50
194.98642
51
21.013583
0
LINE
8
0
10
0.110013
20
-0.24677827
30
0.0
11
0.18402164
21
-0.41279252
31
0.0
0
ARC
8
0
10
0
20
0
30
0.0
40
0.27018951
50
294.02717
51
317.97283
0
LINE
8
0
10
0.20070419
20
-0.18088726
30
0.0
11
0.3357232
21
-0.30257488
31
0.0
0
ARC
8
0
10
0.36563776
20
-0.26565138
30
0.0
40
0.047455078
50
230.98642
51
57.013583
0
LINE
8
0
10
0.23405501
20
-0.13498379
30
0.0
11
0.39150999
21
-0.22579095
31
0.0
0
ARC
8
0
10
0
20
0
30
0.0
40
0.27018951
50
330.02717
51
353.97283
0
ENDSEC
0
EOF
