0
SECTION
2
ENTITIES
0
CIRCLE
8
0
10
-0.224
20
0.25
30
0.0
40
0.065
0
CIRCLE
8
0
10
-2.076
20
0.25
30
0.0
40
0.065
0
CIRCLE
8
0
10
-0.05
20
0.85
30
0.0
40
0.083
0
CIRCLE
8
0
10
-2.25
20
0.85
30
0.0
40
0.083
0
CIRCLE
8
0
10
-0.8913
20
1.6
30
0.0
40
0.0413385
0
CIRCLE
8
0
10
-1.4087
20
1.6
30
0.0
40
0.0413385
0
ARC
8
0
10
-0.083333333
20
0.083333333
30
0.0
40
0.083333333
50
270
51
0
0
ARC
8
0
10
-0.083333333
20
0.083333333
30
0.0
40
0.14583333
50
270
51
0
0
ARC
8
0
10
-0.083333333
20
1.6166667
30
0.0
40
0.083333333
50
0
51
90
0
ARC
8
0
10
-0.083333333
20
1.6166667
30
0.0
40
0.14583333
50
0
51
90
0
ARC
8
0
10
-2.2166667
20
1.6166667
30
0.0
40
0.083333333
50
90
51
180
0
ARC
8
0
10
-2.2166667
20
1.6166667
30
0.0
40
0.14583333
50
90
51
180
0
ARC
8
0
10
-2.2166667
20
0.083333333
30
0.0
40
0.083333333
50
180
51
270
0
ARC
8
0
10
-2.2166667
20
0.083333333
30
0.0
40
0.14583333
50
180
51
270
0
LINE
8
0
10
0
20
0
30
0.0
11
0
21
1.7
31
0.0
0
LINE
8
0
10
0
20
1.7
30
0.0
11
-2.3
21
1.7
31
0.0
0
LINE
8
0
10
-2.3
20
1.7
30
0.0
11
-2.3
21
0
31
0.0
0
LINE
8
0
10
-2.3
20
0
30
0.0
11
0
21
0
31
0.0
0
ENDSEC
0
EOF
