0
SECTION
2
ENTITIES
0
CIRCLE
8
0
10
-2.29
20
-0.655
30
0.0
40
0.1005
0
CIRCLE
8
0
10
-0.225
20
-1
30
0.0
40
0.083
0
CIRCLE
8
0
10
-5.775
20
-1
30
0.0
40
0.083
0
LINE
8
0
10
0
20
0
30
0.0
11
-6
21
0
31
0.0
0
LINE
8
0
10
-6
20
0
30
0.0
11
-6
21
-2
31
0.0
0
LINE
8
0
10
-6
20
-2
30
0.0
11
-5.3356
21
-2
31
0.0
0
LINE
8
0
10
-5.3356
20
-2
30
0.0
11
-5.05
21
-1.55
31
0.0
0
LINE
8
0
10
-5.05
20
-1.55
30
0.0
11
-5.05
21
-1.25
31
0.0
0
LINE
8
0
10
-5.05
20
-1.25
30
0.0
11
-4.73
21
-1.25
31
0.0
0
LINE
8
0
10
-4.73
20
-1.25
30
0.0
11
-4.73
21
-0.95
31
0.0
0
LINE
8
0
10
-4.73
20
-0.95
30
0.0
11
-3.6
21
-0.95
31
0.0
0
LINE
8
0
10
-3.6
20
-0.95
30
0.0
11
-3.6
21
-0.54
31
0.0
0
LINE
8
0
10
-3.6
20
-0.54
30
0.0
11
-2.72
21
-0.54
31
0.0
0
LINE
8
0
10
-2.72
20
-0.54
30
0.0
11
-2.72
21
-0.95
31
0.0
0
LINE
8
0
10
-2.72
20
-0.95
30
0.0
11
-1.52
21
-0.95
31
0.0
0
LINE
8
0
10
-1.52
20
-0.95
30
0.0
11
-1.52
21
-1.25
31
0.0
0
LINE
8
0
10
-1.52
20
-1.25
30
0.0
11
-0.95
21
-1.25
31
0.0
0
LINE
8
0
10
-0.95
20
-1.25
30
0.0
11
-0.95
21
-1.55
31
0.0
0
LINE
8
0
10
-0.95
20
-1.55
30
0.0
11
-0.6644
21
-2
31
0.0
0
LINE
8
0
10
-0.6644
20
-2
30
0.0
11
0
21
-2
31
0.0
0
LINE
8
0
10
0
20
-2
30
0.0
11
0
21
0
31
0.0
0
ENDSEC
0
EOF
